This is your channel and you want to get more insights ?
342K
subs.
799
videos
127.91M
views
Score
563

STEVE VAI 🔷 Crossroads Solo 🔷 Guitar Lesson

Published on Sat, Jul 13th 2019 Music Rectangular HD

TABS FOR THIS LESSON AVAILABLE ON MY NEW GUITAR LESSON WEBSITE: https://guitarlessonvideoswithtabs.yolasite.com/STEVE-VAI---Crossroads-Solo.php
Amazing guitar solo by Steve Vai! From the movie Crossroads. Guitar lesson with step by step method with easy to follow tabs in the video.
TABS for this lesson available on my guitar lesson website: http://www.bobsguitarlessons.yolasite.com
Facebook: https://www.facebook.com/BobbyCrispyGuitarLessons
E-----------------------------------------------------17--15--13------------------------
B---------13--17--13-------15--17--15--13------------------17--15--13-------
G----14------------------16--------------------------------------------------------16--
D-------------------------------------------------------------------------------------------
A--------------------------------------------------------------------------------------------
E--------------------------------------------------------------------------------------------

E------------------------17--15--13-------------------19--17--15--------------------
B--------14--17--14------------------17--14/15--------------------18--17--15---
G----14------------------------------------------------------------------------------------
D--------------------------------------------------------------------------------------------
A--------------------------------------------------------------------------------------------
E--------------------------------------------------------------------------------------------

E--------------------------13p12-----------------17--15--13---------------------------
B---------12--15--12-------------15--12/13-------------------17--15--13----------
G----12-------------------------------------------------------------------------------16---
D----------------------------------------------------------------------------------------------
A----------------------------------------------------------------------------------------------
E----------------------------------------------------------------------------------------------

E--------------------------13p12p10-----------------13p10-------------17--
B---------10--13--10-------------------13--9h12-------------13p10--------
G----10-----------------------------------------------------------------------------
D--------------------------------------------------------------------------------------
A--------------------------------------------------------------------------------------
E--------------------------------------------------------------------------------------


E-------------16----------14-----------12-----------10----
B----16/17------17\15------15\14-------14\12---------
G----------------------------------------------------------------
D----------------------------------------------------------------
A----------------------------------------------------------------
E-----------------------------------------------------------------

E--------------9---------7---------5---------4---
B----12\10-----10\9------9\7------7\5-------
G---------------------------------------------------
D---------------------------------------------------
A---------------------------------------------------
E---------------------------------------------------

Tony Polecastro
Guitarjamz
Andy Guitar
Yourguitarsage
steveterreberry
marty music
Justin guitar
steve stine
shutup&play-guitartutorials
workshop tutorials
paul davids
truefire
guitarzoomsongs
song notes
guitarlessons365songs
swiftlessons
guitareo
steve terreberry
Kmac2021

General statistics

Views
Total
4,629
Likes
Total
xxx.xx
Dislikes
Total
xxx.xx
Comments
Total
xxx.xx
Length
Total
00:07:02

Views

Generating graph...

Views

Generating graph...
Generating table...

Follow us

We use cookies to ensure you get the best experience on our website. By using our site you agree to the following Terms of use and Privacy policy. Accept