This is your channel and you want to get more insights ?
334.9K
subs.
780
videos
124.04M
views
Score
558

Limelight đź”· RUSH đź”· Guitar Lesson

Published on Fri, Mar 22nd 2019 Music Rectangular HD

**TABS FOR THIS LESSON: http://jpst.it/AetT
Limelight by the classic Canadian band Rush. Guitar lesson with step by step method with easy to follow tabs in the video.
TABS for this lesson available on my guitar lesson website:
http://www.bobsguitarlessons.yolasite.com
Facebook: https://www.facebook.com/BobbyCrispyGuitarLessons

E---------------------------------------------------------------
B---------------------------------------------------------------
G-------------------------------4-----4------------2---------
D-------------------------2----4-----4------------2---------
A--------------0---4----------2-----2------------0----------
E----0---4----------------------------------4-----------------

Riff 2
E-----------------------------------------------------
B-----------------------------------------------------
G----2----2----2-----------------------------------
D----2----2----2----2-----------------------------
A----4----0----0----2--------------0---4---0----
E---------------------0-----2---4------------------

Riff 3
E----------0-------------------------------------------------------0------------------------------------0----0----
B--------------0---------------------------------------------------0------------------------------------0----------
G----4-------------------------------------------------------------------------------------------------------------
D----4-------------------6----6--------4----4--4-------2--------------4----4----------------------------------
A----2-------------------6----6--------4----4--4-------2--------------4----4----------------------------------
E-------------------------4----4--------2----2--2-------0--------------2----2----2--4-----0------------------

Riff 4
E----------------------------------------------------------------------
B---------------------------------------------------------------------
G------------4--------------4---------------------------------------
D--------4-------------2--------------------------------------------
A----2------------0--------------------------------0----4----0----
E---------------------------------0----2----4----------------------

Riff 5 ( 2 1/3 times )
E---------------------------------------------------------------------------------------
B------------------------------------------------0--------------------------0---------
G-------------------4-----6------------------------3---------------------------3----
D--------------4-------------------------2--------------------------4----------------
A---------6-------------------------2--------------------------4---------------------
E----4--------------------------0-------------------------2--------------------------

Riff 6 E, F#, G#sus4,
E--------------------4------0------0------4------0-----0-----
B--------------------4------0------0------4------0-----0-----
G--------------------6------1------3------6-----1-----3-----
D----2-------4------4------2------4------4-----2-----4-----
A----2-------4------6------2------4------6-----2-----4-----
E----0-------2------4------0------2------4-----0-----2-----

Song Structure

1 (x3 1/2), 2 (x4), 3 (x1 1/2), 4 (x2),
3 (x 1 1/2), 4, 5 (x2 1/3), 6, 5, 2 (x2),
3 (x 1 1/2), 4 (x2), 3 (x 1 1/2), 4, 5 (x 2 1/2),
6, Guitar Solo ( played over riff 5 several times ),
5 ( x 3 1/2), 6 ( x3)
Last Chord: G#sus4

General statistics

Views
Total
2,776
Likes
Total
xxx.xx
Dislikes
Total
xxx.xx
Comments
Total
xxx.xx
Length
Total
00:10:37

Metadata

Tags

bobbycrispy guitar lesson Rush (band) limelight alex lifeson geddy lee neil peart moving pictures classic rock canadian canada how to play instructional tutorial tom sawyer subdivisions Alex Lifeson (Musician) Free Online Guitar Lessons Tabs for Guitar How to Play steveterreberry justinguitar guitarjamz andy guitar yourguitarsage jared dines steve stine let'splayguitar! guitar music pro music is win paul davies guitarist6494 justin sandercoe steve terreberry

Topics

Music (parent topic) Rock music

Videolists

No videolist for this video.

Content

No format for this video.

Public statistics

Views

Generating graph...

Views

Generating graph...

Likes

Generating graph...

Dislikes

Generating graph...

Comments

Generating graph...

Private statistics

Watch time

This widget is only available to channel's owner.

Sign in

Subscribers gained

This widget is only available to channel's owner.

Sign in

Shares

This widget is only available to channel's owner.

Sign in

Estimated demography

This widget is only available to channel's owner.

Sign in

Estimated audience

This widget is only available to channel's owner.

Sign in

Follow us

We use cookies to ensure you get the best experience on our website. By using our site you agree to the following Terms of use and Privacy policy. Accept